ISO-10303-21;
HEADER;
FILE_DESCRIPTION (( 'STEP AP214' ),
    '1' );
FILE_NAME ('GL7AL1-025-025.STEP',
    '2024-07-21T09:17:31',
    ( '' ),
    ( '' ),
    'SwSTEP 2.0',
    'SolidWorks 2022',
    '' );
FILE_SCHEMA (( 'AUTOMOTIVE_DESIGN' ));
ENDSEC;

DATA;
#1 = DIRECTION ( 'NONE',  ( 1.000000000000000000, 0.000000000000000000, -1.389074591468158566E-16 ) ) ;
#2 = AXIS2_PLACEMENT_3D ( 'NONE', #258, #254, #37 ) ;
#3 = FILL_AREA_STYLE_COLOUR ( '', #315 ) ;
#4 = AXIS2_PLACEMENT_3D ( 'NONE', #227, #43, #78 ) ;
#5 = VECTOR ( 'NONE', #75, 1000.000000000000000 ) ;
#6 = ORIENTED_EDGE ( 'NONE', *, *, #79, .T. ) ;
#7 = FACE_OUTER_BOUND ( 'NONE', #186, .T. ) ;
#8 = EDGE_CURVE ( 'NONE', #237, #295, #41, .T. ) ;
#9 = ORIENTED_EDGE ( 'NONE', *, *, #158, .T. ) ;
#10 = APPLICATION_CONTEXT ( 'automotive_design' ) ;
#11 = CARTESIAN_POINT ( 'NONE',  ( 1.374924591523393738E-17, 0.000000000000000000, 3.912271112983813470 ) ) ;
#12 = CARTESIAN_POINT ( 'NONE',  ( 0.000000000000000000, 0.000000000000000000, 3.799999999999999822 ) ) ;
#13 = CONICAL_SURFACE ( 'NONE', #127, 12.69999999999999929, 0.7853981633974526089 ) ;
#14 = CARTESIAN_POINT ( 'NONE',  ( 0.000000000000000000, 0.000000000000000000, 0.2000000000000126676 ) ) ;
#15 = DIRECTION ( 'NONE',  ( -1.224646799147353207E-16, 1.000000000000000000, 1.499759782661857882E-32 ) ) ;
#16 = DIRECTION ( 'NONE',  ( 1.000000000000000000, 0.000000000000000000, 0.000000000000000000 ) ) ;
#17 = SURFACE_STYLE_USAGE ( .BOTH. , #208 ) ;
#18 = CIRCLE ( 'NONE', #100, 12.69999999999999929 ) ;
#19 = AXIS2_PLACEMENT_3D ( 'NONE', #167, #57, #280 ) ;
#20 = EDGE_CURVE ( 'NONE', #207, #183, #25, .T. ) ;
#21 = DIRECTION ( 'NONE',  ( -0.000000000000000000, -0.000000000000000000, -1.000000000000000000 ) ) ;
#22 = DIRECTION ( 'NONE',  ( 1.224646799147353947E-16, -0.000000000000000000, 1.000000000000000000 ) ) ;
#23 = CARTESIAN_POINT ( 'NONE',  ( -12.05188948413890948, 0.000000000000000000, 3.912271112983815247 ) ) ;
#24 = ADVANCED_FACE ( 'NONE', ( #279 ), #216, .F. ) ;
#25 = CIRCLE ( 'NONE', #265, 12.05188948413890948 ) ;
#26 = DIRECTION ( 'NONE',  ( 1.000000000000000000, 0.000000000000000000, -1.389074591468158566E-16 ) ) ;
#27 = EDGE_LOOP ( 'NONE', ( #247, #9, #33, #166 ) ) ;
#28 = CIRCLE ( 'NONE', #209, 12.49999999999998579 ) ;
#29 = ORIENTED_EDGE ( 'NONE', *, *, #40, .T. ) ;
#30 = CARTESIAN_POINT ( 'NONE',  ( -12.49999999999998579, 1.543054966925664089E-15, 0.000000000000000000 ) ) ;
#31 = ORIENTED_EDGE ( 'NONE', *, *, #177, .T. ) ;
#32 = DIRECTION ( 'NONE',  ( 1.000000000000000000, 0.000000000000000000, 0.000000000000000000 ) ) ;
#33 = ORIENTED_EDGE ( 'NONE', *, *, #223, .F. ) ;
#34 = AXIS2_PLACEMENT_3D ( 'NONE', #12, #38, #87 ) ;
#35 = ORIENTED_EDGE ( 'NONE', *, *, #158, .F. ) ;
#36 = DIRECTION ( 'NONE',  ( -0.000000000000000000, -0.000000000000000000, 1.000000000000000000 ) ) ;
#37 = DIRECTION ( 'NONE',  ( 0.000000000000000000, 0.000000000000000000, -1.000000000000000000 ) ) ;
#38 = DIRECTION ( 'NONE',  ( -0.000000000000000000, -0.000000000000000000, -1.000000000000000000 ) ) ;
#39 = CONICAL_SURFACE ( 'NONE', #68, 12.69999999999999929, 0.7853981633974526089 ) ;
#40 = EDGE_CURVE ( 'NONE', #183, #207, #105, .T. ) ;
#41 = LINE ( 'NONE', #69, #51 ) ;
#42 = FACE_OUTER_BOUND ( 'NONE', #298, .T. ) ;
#43 = DIRECTION ( 'NONE',  ( 0.000000000000000000, 1.000000000000000000, -0.000000000000000000 ) ) ;
#44 = VECTOR ( 'NONE', #147, 1000.000000000000000 ) ;
#45 = DIRECTION ( 'NONE',  ( -0.000000000000000000, -0.000000000000000000, -1.000000000000000000 ) ) ;
#46 = DIRECTION ( 'NONE',  ( 0.000000000000000000, 0.000000000000000000, 1.000000000000000000 ) ) ;
#47 =( NAMED_UNIT ( * ) SI_UNIT ( $, .STERADIAN. ) SOLID_ANGLE_UNIT ( ) );
#48 = DIRECTION ( 'NONE',  ( 1.000000000000000000, 0.000000000000000000, 0.000000000000000000 ) ) ;
#49 = EDGE_CURVE ( 'NONE', #73, #183, #268, .T. ) ;
#50 = ORIENTED_EDGE ( 'NONE', *, *, #177, .F. ) ;
#51 = VECTOR ( 'NONE', #283, 1000.000000000000000 ) ;
#52 = CONICAL_SURFACE ( 'NONE', #188, 12.48833926292817509, 0.7853981633974678189 ) ;
#53 = CARTESIAN_POINT ( 'NONE',  ( 0.000000000000000000, 0.000000000000000000, 0.000000000000000000 ) ) ;
#54 = EDGE_LOOP ( 'NONE', ( #35, #115, #59, #248 ) ) ;
#55 = LINE ( 'NONE', #141, #86 ) ;
#56 = ORIENTED_EDGE ( 'NONE', *, *, #271, .T. ) ;
#57 = DIRECTION ( 'NONE',  ( 0.000000000000000000, 1.000000000000000000, -0.000000000000000000 ) ) ;
#58 = UNCERTAINTY_MEASURE_WITH_UNIT (LENGTH_MEASURE( 1.000000000000000082E-05 ), #98, 'distance_accuracy_value', 'NONE');
#59 = ORIENTED_EDGE ( 'NONE', *, *, #106, .T. ) ;
#60 = AXIS2_PLACEMENT_3D ( 'NONE', #256, #15, #309 ) ;
#61 = DIRECTION ( 'NONE',  ( -0.000000000000000000, -0.000000000000000000, -1.000000000000000000 ) ) ;
#62 = AXIS2_PLACEMENT_3D ( 'NONE', #205, #278, #66 ) ;
#63 = VERTEX_POINT ( 'NONE', #99 ) ;
#64 = APPLICATION_PROTOCOL_DEFINITION ( 'draft international standard', 'automotive_design', 1998, #70 ) ;
#65 = SURFACE_STYLE_FILL_AREA ( #241 ) ;
#66 = DIRECTION ( 'NONE',  ( -1.000000000000000000, 0.000000000000000000, 0.000000000000000000 ) ) ;
#67 = CARTESIAN_POINT ( 'NONE',  ( -12.69999999999999929, 0.000000000000000000, 5.726818181818252640 ) ) ;
#68 = AXIS2_PLACEMENT_3D ( 'NONE', #14, #119, #190 ) ;
#69 = CARTESIAN_POINT ( 'NONE',  ( -12.69999999999999929, 1.555301434917138433E-15, 0.2000000000000126676 ) ) ;
#70 = APPLICATION_CONTEXT ( 'automotive_design' ) ;
#71 = DIRECTION ( 'NONE',  ( 1.000000000000000000, 0.000000000000000000, -1.365923996832131609E-16 ) ) ;
#72 = EDGE_CURVE ( 'NONE', #73, #207, #229, .T. ) ;
#73 = VERTEX_POINT ( 'NONE', #149 ) ;
#74 = APPLICATION_PROTOCOL_DEFINITION ( 'draft international standard', 'automotive_design', 1998, #10 ) ;
#75 = DIRECTION ( 'NONE',  ( 0.7071067811865505703, 0.000000000000000000, 0.7071067811865444641 ) ) ;
#76 = CIRCLE ( 'NONE', #251, 1.926818181818251707 ) ;
#77 = STYLED_ITEM ( 'NONE', ( #146 ), #305 ) ;
#78 = DIRECTION ( 'NONE',  ( -1.000000000000000000, 0.000000000000000000, 9.683078291804669963E-17 ) ) ;
#79 = EDGE_CURVE ( 'NONE', #184, #63, #94, .T. ) ;
#80 = CARTESIAN_POINT ( 'NONE',  ( 12.69999999999999929, 0.000000000000000000, 0.2000000000000126676 ) ) ;
#81 = CARTESIAN_POINT ( 'NONE',  ( 0.000000000000000000, 0.000000000000000000, 3.600000000000022737 ) ) ;
#82 = EDGE_CURVE ( 'NONE', #295, #142, #18, .T. ) ;
#83 = ORIENTED_EDGE ( 'NONE', *, *, #192, .F. ) ;
#84 = ORIENTED_EDGE ( 'NONE', *, *, #118, .T. ) ;
#85 = AXIS2_PLACEMENT_3D ( 'NONE', #107, #22, #1 ) ;
#86 = VECTOR ( 'NONE', #61, 1000.000000000000000 ) ;
#87 = DIRECTION ( 'NONE',  ( -1.000000000000000000, 0.000000000000000000, 0.000000000000000000 ) ) ;
#88 = ADVANCED_FACE ( 'NONE', ( #42 ), #39, .T. ) ;
#89 = ORIENTED_EDGE ( 'NONE', *, *, #113, .T. ) ;
#90 = CARTESIAN_POINT ( 'NONE',  ( -12.69999999999999929, 0.000000000000000000, 0.2000000000000126676 ) ) ;
#91 = ORIENTED_EDGE ( 'NONE', *, *, #20, .F. ) ;
#92 = PRODUCT_DEFINITION_CONTEXT ( 'detailed design', #10, 'design' ) ;
#93 = ORIENTED_EDGE ( 'NONE', *, *, #228, .F. ) ;
#94 = CIRCLE ( 'NONE', #194, 12.69999999999999929 ) ;
#95 = VECTOR ( 'NONE', #45, 1000.000000000000000 ) ;
#96 = LINE ( 'NONE', #214, #44 ) ;
#97 = EDGE_CURVE ( 'NONE', #276, #207, #126, .T. ) ;
#98 =( LENGTH_UNIT ( ) NAMED_UNIT ( * ) SI_UNIT ( .MILLI., .METRE. ) );
#99 = CARTESIAN_POINT ( 'NONE',  ( -12.69999999999999929, 0.000000000000000000, 3.600000000000024514 ) ) ;
#100 = AXIS2_PLACEMENT_3D ( 'NONE', #172, #144, #234 ) ;
#101 = AXIS2_PLACEMENT_3D ( 'NONE', #121, #36, #32 ) ;
#102 =( NAMED_UNIT ( * ) PLANE_ANGLE_UNIT ( ) SI_UNIT ( $, .RADIAN. ) );
#103 = FACE_OUTER_BOUND ( 'NONE', #54, .T. ) ;
#104 = DIRECTION ( 'NONE',  ( 0.7071067811865612285, 8.659560562355102956E-17, -0.7071067811865339170 ) ) ;
#105 = CIRCLE ( 'NONE', #274, 12.05188948413890948 ) ;
#106 = EDGE_CURVE ( 'NONE', #276, #63, #96, .T. ) ;
#107 = CARTESIAN_POINT ( 'NONE',  ( -2.345391434569114681E-16, 0.000000000000000000, 3.811660737074128669 ) ) ;
#108 = MANIFOLD_SOLID_BREP ( 'µ¹½Ç2', #202 ) ;
#109 = LINE ( 'NONE', #152, #95 ) ;
#110 = EDGE_CURVE ( 'NONE', #237, #187, #28, .T. ) ;
#111 = ORIENTED_EDGE ( 'NONE', *, *, #97, .F. ) ;
#112 = EDGE_LOOP ( 'NONE', ( #294, #84, #136, #249 ) ) ;
#113 = EDGE_CURVE ( 'NONE', #252, #183, #76, .T. ) ;
#114 = VECTOR ( 'NONE', #104, 999.9999999999998863 ) ;
#115 = ORIENTED_EDGE ( 'NONE', *, *, #153, .F. ) ;
#116 = ORIENTED_EDGE ( 'NONE', *, *, #282, .T. ) ;
#117 =( NAMED_UNIT ( * ) SI_UNIT ( $, .STERADIAN. ) SOLID_ANGLE_UNIT ( ) );
#118 = EDGE_CURVE ( 'NONE', #252, #276, #120, .T. ) ;
#119 = DIRECTION ( 'NONE',  ( -0.000000000000000000, -0.000000000000000000, 1.000000000000000000 ) ) ;
#120 = CIRCLE ( 'NONE', #85, 12.48833926292842911 ) ;
#121 = CARTESIAN_POINT ( 'NONE',  ( 0.000000000000000000, 0.000000000000000000, 0.2000000000000126676 ) ) ;
#122 = ORIENTED_EDGE ( 'NONE', *, *, #49, .T. ) ;
#123 = SURFACE_STYLE_USAGE ( .BOTH. , #235 ) ;
#124 = ORIENTED_EDGE ( 'NONE', *, *, #228, .T. ) ;
#125 = ORIENTED_EDGE ( 'NONE', *, *, #153, .T. ) ;
#126 = CIRCLE ( 'NONE', #303, 1.926818181818252151 ) ;
#127 = AXIS2_PLACEMENT_3D ( 'NONE', #156, #261, #48 ) ;
#128 =( LENGTH_UNIT ( ) NAMED_UNIT ( * ) SI_UNIT ( .MILLI., .METRE. ) );
#129 = FACE_OUTER_BOUND ( 'NONE', #112, .T. ) ;
#130 = FACE_OUTER_BOUND ( 'NONE', #27, .T. ) ;
#131 = ADVANCED_FACE ( 'NONE', ( #130 ), #245, .T. ) ;
#132 =( GEOMETRIC_REPRESENTATION_CONTEXT ( 3 ) GLOBAL_UNCERTAINTY_ASSIGNED_CONTEXT ( ( #163 ) ) GLOBAL_UNIT_ASSIGNED_CONTEXT ( ( #301, #299, #253 ) ) REPRESENTATION_CONTEXT ( 'NONE', 'WORKASPACE' ) );
#133 = DIRECTION ( 'NONE',  ( -1.224646799147353947E-16, 0.000000000000000000, -1.000000000000000000 ) ) ;
#134 = ADVANCED_FACE ( 'NONE', ( #103 ), #52, .T. ) ;
#135 = STYLED_ITEM ( 'NONE', ( #239 ), #108 ) ;
#136 = ORIENTED_EDGE ( 'NONE', *, *, #97, .T. ) ;
#137 = TOROIDAL_SURFACE ( 'NONE', #293, 12.69999999999999929, 1.926818181818252151 ) ;
#138 = EDGE_LOOP ( 'NONE', ( #226, #93, #162, #196 ) ) ;
#139 = DIRECTION ( 'NONE',  ( -1.000000000000000000, 0.000000000000000000, 1.224646799147353454E-16 ) ) ;
#140 = TOROIDAL_SURFACE ( 'NONE', #219, 12.69999999999999929, 1.926818181818252151 ) ;
#141 = CARTESIAN_POINT ( 'NONE',  ( -12.69999999999999929, 0.000000000000000000, 3.799999999999999822 ) ) ;
#142 = VERTEX_POINT ( 'NONE', #292 ) ;
#143 =( NAMED_UNIT ( * ) PLANE_ANGLE_UNIT ( ) SI_UNIT ( $, .RADIAN. ) );
#144 = DIRECTION ( 'NONE',  ( -0.000000000000000000, -0.000000000000000000, 1.000000000000000000 ) ) ;
#145 = COLOUR_RGB ( '',1.000000000000000000, 1.000000000000000000, 1.000000000000000000 ) ;
#146 = PRESENTATION_STYLE_ASSIGNMENT (( #123 ) ) ;
#147 = DIRECTION ( 'NONE',  ( -0.7071067811865614505, 0.000000000000000000, -0.7071067811865335839 ) ) ;
#148 = CARTESIAN_POINT ( 'NONE',  ( 0.000000000000000000, 0.000000000000000000, 0.000000000000000000 ) ) ;
#149 = CARTESIAN_POINT ( 'NONE',  ( 2.193954740672484613E-15, 0.000000000000000000, 6.000000000000001776 ) ) ;
#150 = PRESENTATION_LAYER_ASSIGNMENT (  '', '', ( #135 ) ) ;
#151 = PRODUCT_DEFINITION_FORMATION_WITH_SPECIFIED_SOURCE ( 'ÈÎºÎ', '', #197, .NOT_KNOWN. ) ;
#152 = CARTESIAN_POINT ( 'NONE',  ( 12.69999999999999929, 1.555301434917138038E-15, 3.799999999999999822 ) ) ;
#153 = EDGE_CURVE ( 'NONE', #276, #252, #289, .T. ) ;
#154 = DIRECTION ( 'NONE',  ( -1.000000000000000000, -1.224646799147353207E-16, 0.000000000000000000 ) ) ;
#155 = DIRECTION ( 'NONE',  ( -1.000000000000000000, 0.000000000000000000, 1.389074591468186669E-16 ) ) ;
#156 = CARTESIAN_POINT ( 'NONE',  ( 0.000000000000000000, 0.000000000000000000, 0.2000000000000126676 ) ) ;
#157 = AXIS2_PLACEMENT_3D ( 'NONE', #169, #46, #16 ) ;
#158 = EDGE_CURVE ( 'NONE', #252, #184, #313, .T. ) ;
#159 = EDGE_LOOP ( 'NONE', ( #238, #31, #56, #273 ) ) ;
#160 = AXIS2_PLACEMENT_3D ( 'NONE', #178, #244, #26 ) ;
#161 = DIRECTION ( 'NONE',  ( -0.000000000000000000, -0.000000000000000000, -1.000000000000000000 ) ) ;
#162 = ORIENTED_EDGE ( 'NONE', *, *, #192, .T. ) ;
#163 = UNCERTAINTY_MEASURE_WITH_UNIT (LENGTH_MEASURE( 1.000000000000000082E-05 ), #301, 'distance_accuracy_value', 'NONE');
#164 = ORIENTED_EDGE ( 'NONE', *, *, #40, .F. ) ;
#165 = ORIENTED_EDGE ( 'NONE', *, *, #72, .F. ) ;
#166 = ORIENTED_EDGE ( 'NONE', *, *, #106, .F. ) ;
#167 = CARTESIAN_POINT ( 'NONE',  ( 0.000000000000000000, 0.000000000000000000, -29.83000000000000540 ) ) ;
#168 = DIRECTION ( 'NONE',  ( 0.000000000000000000, -1.000000000000000000, 0.000000000000000000 ) ) ;
#169 = CARTESIAN_POINT ( 'NONE',  ( 0.000000000000000000, 0.000000000000000000, 0.000000000000000000 ) ) ;
#170 = DIRECTION ( 'NONE',  ( 0.000000000000000000, 0.000000000000000000, 1.000000000000000000 ) ) ;
#171 = UNCERTAINTY_MEASURE_WITH_UNIT (LENGTH_MEASURE( 1.000000000000000082E-05 ), #128, 'distance_accuracy_value', 'NONE');
#172 = CARTESIAN_POINT ( 'NONE',  ( 0.000000000000000000, 0.000000000000000000, 0.2000000000000126676 ) ) ;
#173 = LINE ( 'NONE', #80, #5 ) ;
#174 = PRODUCT_DEFINITION ( 'Î´Öª', '', #151, #92 ) ;
#175 = DIRECTION ( 'NONE',  ( -1.000000000000000000, 0.000000000000000000, 1.224646799147353454E-16 ) ) ;
#176 = DIRECTION ( 'NONE',  ( 1.000000000000000000, 0.000000000000000000, 0.000000000000000000 ) ) ;
#177 = EDGE_CURVE ( 'NONE', #184, #142, #109, .T. ) ;
#178 = CARTESIAN_POINT ( 'NONE',  ( -2.345391434569114681E-16, 0.000000000000000000, 3.811660737074128669 ) ) ;
#179 = CARTESIAN_POINT ( 'NONE',  ( 12.69999999999999929, 1.555301434917138433E-15, 5.726818181818249087 ) ) ;
#180 = EDGE_LOOP ( 'NONE', ( #125, #89, #29, #111 ) ) ;
#181 = ADVANCED_FACE ( 'NONE', ( #129 ), #137, .F. ) ;
#182 = MECHANICAL_DESIGN_GEOMETRIC_PRESENTATION_REPRESENTATION (  '', ( #135 ), #317 ) ;
#183 = VERTEX_POINT ( 'NONE', #199 ) ;
#184 = VERTEX_POINT ( 'NONE', #200 ) ;
#185 = PRODUCT_RELATED_PRODUCT_CATEGORY ( 'part', '', ( #197 ) ) ;
#186 = EDGE_LOOP ( 'NONE', ( #232, #269, #164 ) ) ;
#187 = VERTEX_POINT ( 'NONE', #291 ) ;
#188 = AXIS2_PLACEMENT_3D ( 'NONE', #217, #314, #155 ) ;
#189 = SPHERICAL_SURFACE ( 'NONE', #19, 35.83000000000000540 ) ;
#190 = DIRECTION ( 'NONE',  ( 1.000000000000000000, 0.000000000000000000, 0.000000000000000000 ) ) ;
#191 = CARTESIAN_POINT ( 'NONE',  ( 0.000000000000000000, 0.000000000000000000, 3.600000000000022737 ) ) ;
#192 = EDGE_CURVE ( 'NONE', #187, #142, #173, .T. ) ;
#193 = CARTESIAN_POINT ( 'NONE',  ( 0.000000000000000000, 0.000000000000000000, 0.000000000000000000 ) ) ;
#194 = AXIS2_PLACEMENT_3D ( 'NONE', #191, #281, #71 ) ;
#195 = ORIENTED_EDGE ( 'NONE', *, *, #271, .F. ) ;
#196 = ORIENTED_EDGE ( 'NONE', *, *, #82, .F. ) ;
#197 = PRODUCT ( 'GL7AL1-025-025', 'GL7AL1-025-025', '', ( #287 ) ) ;
#198 = FACE_OUTER_BOUND ( 'NONE', #180, .T. ) ;
#199 = CARTESIAN_POINT ( 'NONE',  ( 12.05188948413890948, 1.502655629271978260E-15, 3.912271112983811694 ) ) ;
#200 = CARTESIAN_POINT ( 'NONE',  ( 12.69999999999999929, 1.555301434917138038E-15, 3.600000000000020961 ) ) ;
#201 = SPHERICAL_SURFACE ( 'NONE', #4, 35.83000000000000540 ) ;
#202 = CLOSED_SHELL ( 'NONE', ( #131, #88, #221, #236, #259, #310, #24, #181, #277, #206, #134 ) ) ;
#203 = ORIENTED_EDGE ( 'NONE', *, *, #110, .F. ) ;
#204 = CARTESIAN_POINT ( 'NONE',  ( 12.48833926292817509, 1.529380470501120270E-15, 3.811660737071837168 ) ) ;
#205 = CARTESIAN_POINT ( 'NONE',  ( 0.000000000000000000, 0.000000000000000000, 3.799999999999999822 ) ) ;
#206 = ADVANCED_FACE ( 'NONE', ( #222 ), #13, .T. ) ;
#207 = VERTEX_POINT ( 'NONE', #23 ) ;
#208 = SURFACE_SIDE_STYLE ('',( #65 ) ) ;
#209 = AXIS2_PLACEMENT_3D ( 'NONE', #148, #21, #264 ) ;
#210 = CIRCLE ( 'NONE', #304, 12.69999999999999929 ) ;
#211 = CYLINDRICAL_SURFACE ( 'NONE', #62, 12.69999999999999929 ) ;
#212 = DIRECTION ( 'NONE',  ( -1.224646799147353454E-16, -0.000000000000000000, -1.000000000000000000 ) ) ;
#213 = DIRECTION ( 'NONE',  ( 1.000000000000000000, 0.000000000000000000, -0.000000000000000000 ) ) ;
#214 = CARTESIAN_POINT ( 'NONE',  ( -12.48833926292817509, 0.000000000000000000, 3.811660737071840721 ) ) ;
#215 = CIRCLE ( 'NONE', #101, 12.69999999999999929 ) ;
#216 = PLANE ( 'NONE',  #311 ) ;
#217 = CARTESIAN_POINT ( 'NONE',  ( -2.345391434571918095E-16, 0.000000000000000000, 3.811660737071838945 ) ) ;
#218 = CARTESIAN_POINT ( 'NONE',  ( -2.345391434571918095E-16, 0.000000000000000000, 3.811660737071838945 ) ) ;
#219 = AXIS2_PLACEMENT_3D ( 'NONE', #288, #263, #175 ) ;
#220 = DIRECTION ( 'NONE',  ( -1.224646799147353207E-16, 1.000000000000000000, 1.499759782661857882E-32 ) ) ;
#221 = ADVANCED_FACE ( 'NONE', ( #267 ), #201, .T. ) ;
#222 = FACE_OUTER_BOUND ( 'NONE', #138, .T. ) ;
#223 = EDGE_CURVE ( 'NONE', #63, #184, #210, .T. ) ;
#224 = AXIS2_PLACEMENT_3D ( 'NONE', #53, #161, #176 ) ;
#225 = EDGE_LOOP ( 'NONE', ( #124, #306 ) ) ;
#226 = ORIENTED_EDGE ( 'NONE', *, *, #8, .F. ) ;
#227 = CARTESIAN_POINT ( 'NONE',  ( 0.000000000000000000, 0.000000000000000000, -29.83000000000000540 ) ) ;
#228 = EDGE_CURVE ( 'NONE', #187, #237, #297, .T. ) ;
#229 = CIRCLE ( 'NONE', #2, 35.82999999999999829 ) ;
#230 =( GEOMETRIC_REPRESENTATION_CONTEXT ( 3 ) GLOBAL_UNCERTAINTY_ASSIGNED_CONTEXT ( ( #58 ) ) GLOBAL_UNIT_ASSIGNED_CONTEXT ( ( #98, #143, #117 ) ) REPRESENTATION_CONTEXT ( 'NONE', 'WORKASPACE' ) );
#231 = SURFACE_STYLE_FILL_AREA ( #233 ) ;
#232 = ORIENTED_EDGE ( 'NONE', *, *, #49, .F. ) ;
#233 = FILL_AREA_STYLE ('',( #3 ) ) ;
#234 = DIRECTION ( 'NONE',  ( 1.000000000000000000, 0.000000000000000000, 0.000000000000000000 ) ) ;
#235 = SURFACE_SIDE_STYLE ('',( #231 ) ) ;
#236 = ADVANCED_FACE ( 'NONE', ( #198 ), #140, .F. ) ;
#237 = VERTEX_POINT ( 'NONE', #30 ) ;
#238 = ORIENTED_EDGE ( 'NONE', *, *, #223, .T. ) ;
#239 = PRESENTATION_STYLE_ASSIGNMENT (( #17 ) ) ;
#240 = SHAPE_DEFINITION_REPRESENTATION ( #243, #305 ) ;
#241 = FILL_AREA_STYLE ('',( #257 ) ) ;
#242 = DIRECTION ( 'NONE',  ( -1.224646799147353947E-16, 0.000000000000000000, -1.000000000000000000 ) ) ;
#243 = PRODUCT_DEFINITION_SHAPE ( 'NONE', 'NONE',  #174 ) ;
#244 = DIRECTION ( 'NONE',  ( 1.224646799147353947E-16, -0.000000000000000000, 1.000000000000000000 ) ) ;
#245 = CONICAL_SURFACE ( 'NONE', #284, 12.48833926292817509, 0.7853981633974678189 ) ;
#246 = PRESENTATION_LAYER_ASSIGNMENT (  '', '', ( #77 ) ) ;
#247 = ORIENTED_EDGE ( 'NONE', *, *, #118, .F. ) ;
#248 = ORIENTED_EDGE ( 'NONE', *, *, #79, .F. ) ;
#249 = ORIENTED_EDGE ( 'NONE', *, *, #20, .T. ) ;
#250 = CYLINDRICAL_SURFACE ( 'NONE', #34, 12.69999999999999929 ) ;
#251 = AXIS2_PLACEMENT_3D ( 'NONE', #179, #220, #154 ) ;
#252 = VERTEX_POINT ( 'NONE', #307 ) ;
#253 =( NAMED_UNIT ( * ) SI_UNIT ( $, .STERADIAN. ) SOLID_ANGLE_UNIT ( ) );
#254 = DIRECTION ( 'NONE',  ( 0.000000000000000000, -1.000000000000000000, 0.000000000000000000 ) ) ;
#255 = FACE_OUTER_BOUND ( 'NONE', #302, .T. ) ;
#256 = CARTESIAN_POINT ( 'NONE',  ( 0.000000000000000000, 0.000000000000000000, -29.83000000000000540 ) ) ;
#257 = FILL_AREA_STYLE_COLOUR ( '', #145 ) ;
#258 = CARTESIAN_POINT ( 'NONE',  ( 0.000000000000000000, 0.000000000000000000, -29.83000000000000540 ) ) ;
#259 = ADVANCED_FACE ( 'NONE', ( #270 ), #250, .T. ) ;
#260 = DIRECTION ( 'NONE',  ( 0.000000000000000000, 0.000000000000000000, -1.000000000000000000 ) ) ;
#261 = DIRECTION ( 'NONE',  ( -0.000000000000000000, -0.000000000000000000, 1.000000000000000000 ) ) ;
#262 = DIRECTION ( 'NONE',  ( -1.224646799147353454E-16, -0.000000000000000000, -1.000000000000000000 ) ) ;
#263 = DIRECTION ( 'NONE',  ( -1.224646799147353454E-16, -0.000000000000000000, -1.000000000000000000 ) ) ;
#264 = DIRECTION ( 'NONE',  ( 1.000000000000000000, 0.000000000000000000, 0.000000000000000000 ) ) ;
#265 = AXIS2_PLACEMENT_3D ( 'NONE', #11, #212, #286 ) ;
#266 = ORIENTED_EDGE ( 'NONE', *, *, #8, .T. ) ;
#267 = FACE_OUTER_BOUND ( 'NONE', #318, .T. ) ;
#268 = CIRCLE ( 'NONE', #60, 35.83000000000000540 ) ;
#269 = ORIENTED_EDGE ( 'NONE', *, *, #72, .T. ) ;
#270 = FACE_OUTER_BOUND ( 'NONE', #159, .T. ) ;
#271 = EDGE_CURVE ( 'NONE', #142, #295, #215, .T. ) ;
#272 = CARTESIAN_POINT ( 'NONE',  ( -12.48833926291794150, 0.000000000000000000, 3.811660737074130445 ) ) ;
#273 = ORIENTED_EDGE ( 'NONE', *, *, #282, .F. ) ;
#274 = AXIS2_PLACEMENT_3D ( 'NONE', #308, #285, #312 ) ;
#275 = MECHANICAL_DESIGN_GEOMETRIC_PRESENTATION_REPRESENTATION (  '', ( #77 ), #132 ) ;
#276 = VERTEX_POINT ( 'NONE', #272 ) ;
#277 = ADVANCED_FACE ( 'NONE', ( #7 ), #189, .T. ) ;
#278 = DIRECTION ( 'NONE',  ( -0.000000000000000000, -0.000000000000000000, -1.000000000000000000 ) ) ;
#279 = FACE_OUTER_BOUND ( 'NONE', #225, .T. ) ;
#280 = DIRECTION ( 'NONE',  ( -1.000000000000000000, 0.000000000000000000, 9.683078291804669963E-17 ) ) ;
#281 = DIRECTION ( 'NONE',  ( -1.224646799147353947E-16, 0.000000000000000000, -1.000000000000000000 ) ) ;
#282 = EDGE_CURVE ( 'NONE', #63, #295, #55, .T. ) ;
#283 = DIRECTION ( 'NONE',  ( -0.7071067811865505703, 8.659560562354969836E-17, 0.7071067811865444641 ) ) ;
#284 = AXIS2_PLACEMENT_3D ( 'NONE', #218, #242, #290 ) ;
#285 = DIRECTION ( 'NONE',  ( -1.224646799147353454E-16, -0.000000000000000000, -1.000000000000000000 ) ) ;
#286 = DIRECTION ( 'NONE',  ( -1.000000000000000000, 0.000000000000000000, 1.439378844503858794E-16 ) ) ;
#287 = PRODUCT_CONTEXT ( 'NONE', #70, 'mechanical' ) ;
#288 = CARTESIAN_POINT ( 'NONE',  ( 0.000000000000000000, 0.000000000000000000, 5.726818181818250864 ) ) ;
#289 = CIRCLE ( 'NONE', #160, 12.48833926292842911 ) ;
#290 = DIRECTION ( 'NONE',  ( -1.000000000000000000, 0.000000000000000000, 1.389074591468186669E-16 ) ) ;
#291 = CARTESIAN_POINT ( 'NONE',  ( 12.49999999999998579, 0.000000000000000000, 0.000000000000000000 ) ) ;
#292 = CARTESIAN_POINT ( 'NONE',  ( 12.69999999999999929, 1.555301434917138038E-15, 0.2000000000000126676 ) ) ;
#293 = AXIS2_PLACEMENT_3D ( 'NONE', #296, #262, #139 ) ;
#294 = ORIENTED_EDGE ( 'NONE', *, *, #113, .F. ) ;
#295 = VERTEX_POINT ( 'NONE', #90 ) ;
#296 = CARTESIAN_POINT ( 'NONE',  ( 0.000000000000000000, 0.000000000000000000, 5.726818181818250864 ) ) ;
#297 = CIRCLE ( 'NONE', #224, 12.49999999999998579 ) ;
#298 = EDGE_LOOP ( 'NONE', ( #203, #266, #195, #83 ) ) ;
#299 =( NAMED_UNIT ( * ) PLANE_ANGLE_UNIT ( ) SI_UNIT ( $, .RADIAN. ) );
#300 = ORIENTED_EDGE ( 'NONE', *, *, #82, .T. ) ;
#301 =( LENGTH_UNIT ( ) NAMED_UNIT ( * ) SI_UNIT ( .MILLI., .METRE. ) );
#302 = EDGE_LOOP ( 'NONE', ( #50, #6, #116, #300 ) ) ;
#303 = AXIS2_PLACEMENT_3D ( 'NONE', #67, #168, #260 ) ;
#304 = AXIS2_PLACEMENT_3D ( 'NONE', #81, #133, #316 ) ;
#305 = ADVANCED_BREP_SHAPE_REPRESENTATION ( 'GL7AL1-025-025', ( #108, #157 ), #230 ) ;
#306 = ORIENTED_EDGE ( 'NONE', *, *, #110, .T. ) ;
#307 = CARTESIAN_POINT ( 'NONE',  ( 12.48833926291794150, 1.529380470499867164E-15, 3.811660737074127336 ) ) ;
#308 = CARTESIAN_POINT ( 'NONE',  ( 1.374924591523393738E-17, 0.000000000000000000, 3.912271112983813470 ) ) ;
#309 = DIRECTION ( 'NONE',  ( -1.000000000000000000, -1.224646799147353454E-16, 0.000000000000000000 ) ) ;
#310 = ADVANCED_FACE ( 'NONE', ( #255 ), #211, .T. ) ;
#311 = AXIS2_PLACEMENT_3D ( 'NONE', #193, #170, #213 ) ;
#312 = DIRECTION ( 'NONE',  ( -1.000000000000000000, 0.000000000000000000, 1.439378844503858794E-16 ) ) ;
#313 = LINE ( 'NONE', #204, #114 ) ;
#314 = DIRECTION ( 'NONE',  ( -1.224646799147353947E-16, 0.000000000000000000, -1.000000000000000000 ) ) ;
#315 = COLOUR_RGB ( '',1.000000000000000000, 1.000000000000000000, 1.000000000000000000 ) ;
#316 = DIRECTION ( 'NONE',  ( 1.000000000000000000, 0.000000000000000000, -1.365923996832131609E-16 ) ) ;
#317 =( GEOMETRIC_REPRESENTATION_CONTEXT ( 3 ) GLOBAL_UNCERTAINTY_ASSIGNED_CONTEXT ( ( #171 ) ) GLOBAL_UNIT_ASSIGNED_CONTEXT ( ( #128, #102, #47 ) ) REPRESENTATION_CONTEXT ( 'NONE', 'WORKASPACE' ) );
#318 = EDGE_LOOP ( 'NONE', ( #165, #122, #91 ) ) ;
ENDSEC;
END-ISO-10303-21;
