ISO-10303-21;
HEADER;
FILE_DESCRIPTION (( 'STEP AP214' ),
    '1' );
FILE_NAME ('GL7AL2-025-050.STEP',
    '2024-07-21T09:37:42',
    ( '' ),
    ( '' ),
    'SwSTEP 2.0',
    'SolidWorks 2022',
    '' );
FILE_SCHEMA (( 'AUTOMOTIVE_DESIGN' ));
ENDSEC;

DATA;
#1 = CARTESIAN_POINT ( 'NONE',  ( 0.000000000000000000, 0.000000000000000000, 0.2000000000000022593 ) ) ;
#2 = ORIENTED_EDGE ( 'NONE', *, *, #311, .T. ) ;
#3 = ORIENTED_EDGE ( 'NONE', *, *, #167, .T. ) ;
#4 = AXIS2_PLACEMENT_3D ( 'NONE', #1, #290, #126 ) ;
#5 = CARTESIAN_POINT ( 'NONE',  ( -12.52902277269314446, 0.000000000000000000, 3.872471589133290593 ) ) ;
#6 = DIRECTION ( 'NONE',  ( 0.000000000000000000, 1.000000000000000000, -0.000000000000000000 ) ) ;
#7 = EDGE_CURVE ( 'NONE', #72, #272, #230, .T. ) ;
#8 = ADVANCED_FACE ( 'NONE', ( #302 ), #38, .T. ) ;
#9 = DIRECTION ( 'NONE',  ( -1.000000000000000000, 0.000000000000000000, 1.978781430683766113E-16 ) ) ;
#10 = AXIS2_PLACEMENT_3D ( 'NONE', #65, #164, #235 ) ;
#11 = DIRECTION ( 'NONE',  ( -1.224646799147353207E-16, 1.000000000000000000, 1.473448207527437814E-32 ) ) ;
#12 = DIRECTION ( 'NONE',  ( -0.000000000000000000, -0.000000000000000000, -1.000000000000000000 ) ) ;
#13 = AXIS2_PLACEMENT_3D ( 'NONE', #136, #108, #9 ) ;
#14 = CARTESIAN_POINT ( 'NONE',  ( -1.402593628302662339E-16, 0.000000000000000000, 3.872471589132496117 ) ) ;
#15 = LINE ( 'NONE', #19, #299 ) ;
#16 = ORIENTED_EDGE ( 'NONE', *, *, #111, .F. ) ;
#17 = DIRECTION ( 'NONE',  ( -1.203161767583363456E-16, -0.000000000000000000, -1.000000000000000000 ) ) ;
#18 = ADVANCED_FACE ( 'NONE', ( #205 ), #242, .T. ) ;
#19 = CARTESIAN_POINT ( 'NONE',  ( -12.69999999999999929, 1.555301434917138433E-15, 0.2000000000000022593 ) ) ;
#20 = ORIENTED_EDGE ( 'NONE', *, *, #222, .T. ) ;
#21 = SURFACE_STYLE_USAGE ( .BOTH. , #269 ) ;
#22 = ORIENTED_EDGE ( 'NONE', *, *, #181, .T. ) ;
#23 =( LENGTH_UNIT ( ) NAMED_UNIT ( * ) SI_UNIT ( .MILLI., .METRE. ) );
#24 = AXIS2_PLACEMENT_3D ( 'NONE', #236, #45, #40 ) ;
#25 = AXIS2_PLACEMENT_3D ( 'NONE', #197, #174, #35 ) ;
#26 = ORIENTED_EDGE ( 'NONE', *, *, #190, .F. ) ;
#27 = EDGE_LOOP ( 'NONE', ( #56, #26, #3, #294 ) ) ;
#28 = CARTESIAN_POINT ( 'NONE',  ( 12.49999999999999645, 0.000000000000000000, 0.000000000000000000 ) ) ;
#29 = VERTEX_POINT ( 'NONE', #183 ) ;
#30 = COLOUR_RGB ( '',1.000000000000000000, 1.000000000000000000, 1.000000000000000000 ) ;
#31 = FACE_OUTER_BOUND ( 'NONE', #119, .T. ) ;
#32 = CIRCLE ( 'NONE', #106, 1.178228070174831110 ) ;
#33 = DIRECTION ( 'NONE',  ( -0.6537913032972644256, 0.000000000000000000, -0.7566749181338472408 ) ) ;
#34 = PRODUCT_RELATED_PRODUCT_CATEGORY ( 'part', '', ( #132 ) ) ;
#35 = DIRECTION ( 'NONE',  ( -1.000000000000000000, 0.000000000000000000, 1.041653547523500834E-16 ) ) ;
#36 = FACE_OUTER_BOUND ( 'NONE', #177, .T. ) ;
#37 = CIRCLE ( 'NONE', #88, 12.49016633290208667 ) ;
#38 = SPHERICAL_SURFACE ( 'NONE', #13, 70.13299999999999557 ) ;
#39 = SURFACE_STYLE_USAGE ( .BOTH. , #115 ) ;
#40 = DIRECTION ( 'NONE',  ( 1.000000000000000000, 0.000000000000000000, 0.000000000000000000 ) ) ;
#41 = AXIS2_PLACEMENT_3D ( 'NONE', #91, #17, #185 ) ;
#42 = DIRECTION ( 'NONE',  ( 1.000000000000000000, 0.000000000000000000, 0.000000000000000000 ) ) ;
#43 = ADVANCED_FACE ( 'NONE', ( #31 ), #232, .T. ) ;
#44 = FACE_OUTER_BOUND ( 'NONE', #223, .T. ) ;
#45 = DIRECTION ( 'NONE',  ( -0.000000000000000000, -0.000000000000000000, 1.000000000000000000 ) ) ;
#46 = MECHANICAL_DESIGN_GEOMETRIC_PRESENTATION_REPRESENTATION (  '', ( #142 ), #248 ) ;
#47 = VECTOR ( 'NONE', #276, 1000.000000000000000 ) ;
#48 = ORIENTED_EDGE ( 'NONE', *, *, #202, .T. ) ;
#49 = DIRECTION ( 'NONE',  ( 0.000000000000000000, -1.000000000000000000, 0.000000000000000000 ) ) ;
#50 = VERTEX_POINT ( 'NONE', #180 ) ;
#51 = CARTESIAN_POINT ( 'NONE',  ( 0.000000000000000000, 0.000000000000000000, -65.13299999999999557 ) ) ;
#52 = AXIS2_PLACEMENT_3D ( 'NONE', #14, #215, #116 ) ;
#53 = ORIENTED_EDGE ( 'NONE', *, *, #111, .T. ) ;
#54 = PRODUCT_CONTEXT ( 'NONE', #303, 'mechanical' ) ;
#55 = ADVANCED_FACE ( 'NONE', ( #304 ), #175, .F. ) ;
#56 = ORIENTED_EDGE ( 'NONE', *, *, #222, .F. ) ;
#57 = DIRECTION ( 'NONE',  ( -1.203161767583363456E-16, -0.000000000000000000, -1.000000000000000000 ) ) ;
#58 = DIRECTION ( 'NONE',  ( -0.000000000000000000, -0.000000000000000000, 1.000000000000000000 ) ) ;
#59 = LINE ( 'NONE', #110, #47 ) ;
#60 = CARTESIAN_POINT ( 'NONE',  ( 2.266210899342775174E-18, 0.000000000000000000, 3.878835463030831932 ) ) ;
#61 = CARTESIAN_POINT ( 'NONE',  ( 0.000000000000000000, 0.000000000000000000, 0.2000000000000022593 ) ) ;
#62 = CIRCLE ( 'NONE', #209, 12.69999999999999929 ) ;
#63 = FACE_OUTER_BOUND ( 'NONE', #266, .T. ) ;
#64 =( NAMED_UNIT ( * ) SI_UNIT ( $, .STERADIAN. ) SOLID_ANGLE_UNIT ( ) );
#65 = CARTESIAN_POINT ( 'NONE',  ( 0.000000000000000000, 0.000000000000000000, 3.859999999999999876 ) ) ;
#66 = EDGE_CURVE ( 'NONE', #237, #272, #184, .T. ) ;
#67 = EDGE_CURVE ( 'NONE', #313, #72, #32, .T. ) ;
#68 = AXIS2_PLACEMENT_3D ( 'NONE', #283, #166, #310 ) ;
#69 = LINE ( 'NONE', #309, #155 ) ;
#70 = CARTESIAN_POINT ( 'NONE',  ( 0.000000000000000000, 0.000000000000000000, 0.000000000000000000 ) ) ;
#71 =( NAMED_UNIT ( * ) PLANE_ANGLE_UNIT ( ) SI_UNIT ( $, .RADIAN. ) );
#72 = VERTEX_POINT ( 'NONE', #275 ) ;
#73 = DIRECTION ( 'NONE',  ( 0.000000000000000000, 0.000000000000000000, -1.000000000000000000 ) ) ;
#74 = ORIENTED_EDGE ( 'NONE', *, *, #66, .T. ) ;
#75 = EDGE_LOOP ( 'NONE', ( #296, #97, #220, #16 ) ) ;
#76 = EDGE_CURVE ( 'NONE', #29, #50, #59, .T. ) ;
#77 = EDGE_CURVE ( 'NONE', #193, #29, #93, .T. ) ;
#78 = EDGE_LOOP ( 'NONE', ( #125, #99, #48, #292 ) ) ;
#79 = ORIENTED_EDGE ( 'NONE', *, *, #159, .T. ) ;
#80 = DIRECTION ( 'NONE',  ( -1.203161767583364195E-16, 0.000000000000000000, -1.000000000000000000 ) ) ;
#81 = MECHANICAL_DESIGN_GEOMETRIC_PRESENTATION_REPRESENTATION (  '', ( #241 ), #87 ) ;
#82 = DIRECTION ( 'NONE',  ( 1.000000000000000000, 0.000000000000000000, 0.000000000000000000 ) ) ;
#83 = DIRECTION ( 'NONE',  ( -1.000000000000000000, -1.224646799147353207E-16, 0.000000000000000000 ) ) ;
#84 = CARTESIAN_POINT ( 'NONE',  ( 0.000000000000000000, 0.000000000000000000, 0.2000000000000022593 ) ) ;
#85 = AXIS2_PLACEMENT_3D ( 'NONE', #293, #123, #287 ) ;
#86 = CARTESIAN_POINT ( 'NONE',  ( 12.70000000000000107, 1.555301434917138630E-15, 5.038228070174832318 ) ) ;
#87 =( GEOMETRIC_REPRESENTATION_CONTEXT ( 3 ) GLOBAL_UNCERTAINTY_ASSIGNED_CONTEXT ( ( #204 ) ) GLOBAL_UNIT_ASSIGNED_CONTEXT ( ( #113, #307, #64 ) ) REPRESENTATION_CONTEXT ( 'NONE', 'WORKASPACE' ) );
#88 = AXIS2_PLACEMENT_3D ( 'NONE', #60, #160, #231 ) ;
#89 = DIRECTION ( 'NONE',  ( -1.203161767583364195E-16, 0.000000000000000000, -1.000000000000000000 ) ) ;
#90 = DIRECTION ( 'NONE',  ( -0.7071067811865474617, 8.659560562354932858E-17, 0.7071067811865474617 ) ) ;
#91 = CARTESIAN_POINT ( 'NONE',  ( 0.000000000000000000, 0.000000000000000000, 5.038228070174834095 ) ) ;
#92 = AXIS2_PLACEMENT_3D ( 'NONE', #213, #191, #285 ) ;
#93 = CIRCLE ( 'NONE', #117, 12.69999999999999929 ) ;
#94 = DIRECTION ( 'NONE',  ( -0.000000000000000000, -0.000000000000000000, -1.000000000000000000 ) ) ;
#95 = UNCERTAINTY_MEASURE_WITH_UNIT (LENGTH_MEASURE( 1.000000000000000082E-05 ), #196, 'distance_accuracy_value', 'NONE');
#96 = DIRECTION ( 'NONE',  ( -0.000000000000000000, -0.000000000000000000, -1.000000000000000000 ) ) ;
#97 = ORIENTED_EDGE ( 'NONE', *, *, #189, .T. ) ;
#98 = PRESENTATION_LAYER_ASSIGNMENT (  '', '', ( #241 ) ) ;
#99 = ORIENTED_EDGE ( 'NONE', *, *, #135, .T. ) ;
#100 = DIRECTION ( 'NONE',  ( -1.203161767583364195E-16, 0.000000000000000000, -1.000000000000000000 ) ) ;
#101 = PRODUCT_DEFINITION ( 'Î´Öª', '', #262, #154 ) ;
#102 = ORIENTED_EDGE ( 'NONE', *, *, #135, .F. ) ;
#103 = EDGE_CURVE ( 'NONE', #272, #72, #37, .T. ) ;
#104 =( NAMED_UNIT ( * ) SI_UNIT ( $, .STERADIAN. ) SOLID_ANGLE_UNIT ( ) );
#105 = ORIENTED_EDGE ( 'NONE', *, *, #66, .F. ) ;
#106 = AXIS2_PLACEMENT_3D ( 'NONE', #255, #109, #227 ) ;
#107 = ORIENTED_EDGE ( 'NONE', *, *, #190, .T. ) ;
#108 = DIRECTION ( 'NONE',  ( 0.000000000000000000, 1.000000000000000000, -0.000000000000000000 ) ) ;
#109 = DIRECTION ( 'NONE',  ( 0.000000000000000000, -1.000000000000000000, 0.000000000000000000 ) ) ;
#110 = CARTESIAN_POINT ( 'NONE',  ( 12.69999999999999929, 1.555301434917138433E-15, 3.859999999999999876 ) ) ;
#111 = EDGE_CURVE ( 'NONE', #313, #193, #206, .T. ) ;
#112 = DIRECTION ( 'NONE',  ( -0.000000000000000000, -0.000000000000000000, 1.000000000000000000 ) ) ;
#113 =( LENGTH_UNIT ( ) NAMED_UNIT ( * ) SI_UNIT ( .MILLI., .METRE. ) );
#114 = CIRCLE ( 'NONE', #289, 70.13299999999999557 ) ;
#115 = SURFACE_SIDE_STYLE ('',( #256 ) ) ;
#116 = DIRECTION ( 'NONE',  ( 1.000000000000000000, 0.000000000000000000, -1.038423052289620029E-16 ) ) ;
#117 = AXIS2_PLACEMENT_3D ( 'NONE', #226, #249, #134 ) ;
#118 = FACE_OUTER_BOUND ( 'NONE', #171, .T. ) ;
#119 = EDGE_LOOP ( 'NONE', ( #152, #120, #79, #176 ) ) ;
#120 = ORIENTED_EDGE ( 'NONE', *, *, #76, .T. ) ;
#121 = COLOUR_RGB ( '',1.000000000000000000, 1.000000000000000000, 1.000000000000000000 ) ;
#122 = CIRCLE ( 'NONE', #139, 12.49999999999999645 ) ;
#123 = DIRECTION ( 'NONE',  ( 0.000000000000000000, 0.000000000000000000, 1.000000000000000000 ) ) ;
#124 = EDGE_CURVE ( 'NONE', #270, #318, #214, .T. ) ;
#125 = ORIENTED_EDGE ( 'NONE', *, *, #76, .F. ) ;
#126 = DIRECTION ( 'NONE',  ( 1.000000000000000000, 0.000000000000000000, 0.000000000000000000 ) ) ;
#127 = VERTEX_POINT ( 'NONE', #297 ) ;
#128 = SHAPE_DEFINITION_REPRESENTATION ( #186, #238 ) ;
#129 = ORIENTED_EDGE ( 'NONE', *, *, #254, .T. ) ;
#130 = CIRCLE ( 'NONE', #305, 70.13299999999999557 ) ;
#131 = DIRECTION ( 'NONE',  ( -0.000000000000000000, -0.000000000000000000, -1.000000000000000000 ) ) ;
#132 = PRODUCT ( 'GL7AL2-025-050', 'GL7AL2-025-050', '', ( #54 ) ) ;
#133 = CARTESIAN_POINT ( 'NONE',  ( 12.69999999999999929, 0.000000000000000000, 0.2000000000000022593 ) ) ;
#134 = DIRECTION ( 'NONE',  ( 1.000000000000000000, 0.000000000000000000, -1.365923996832131609E-16 ) ) ;
#135 = EDGE_CURVE ( 'NONE', #29, #193, #62, .T. ) ;
#136 = CARTESIAN_POINT ( 'NONE',  ( 0.000000000000000000, 0.000000000000000000, -65.13299999999999557 ) ) ;
#137 = CARTESIAN_POINT ( 'NONE',  ( -1.402593628301707324E-16, 0.000000000000000000, 3.872471589133289260 ) ) ;
#138 = PLANE ( 'NONE',  #68 ) ;
#139 = AXIS2_PLACEMENT_3D ( 'NONE', #70, #94, #42 ) ;
#140 = FACE_OUTER_BOUND ( 'NONE', #78, .T. ) ;
#141 = DIRECTION ( 'NONE',  ( 0.6537913032972642036, 8.006634268933711182E-17, -0.7566749181338474628 ) ) ;
#142 = STYLED_ITEM ( 'NONE', ( #147 ), #238 ) ;
#143 = CONICAL_SURFACE ( 'NONE', #224, 12.52902277269314446, 0.7125841368262356701 ) ;
#144 =( NAMED_UNIT ( * ) PLANE_ANGLE_UNIT ( ) SI_UNIT ( $, .RADIAN. ) );
#145 = ORIENTED_EDGE ( 'NONE', *, *, #67, .F. ) ;
#146 = EDGE_LOOP ( 'NONE', ( #105, #150, #291, #221 ) ) ;
#147 = PRESENTATION_STYLE_ASSIGNMENT (( #21 ) ) ;
#148 = ORIENTED_EDGE ( 'NONE', *, *, #7, .F. ) ;
#149 = VECTOR ( 'NONE', #33, 1000.000000000000000 ) ;
#150 = ORIENTED_EDGE ( 'NONE', *, *, #267, .T. ) ;
#151 = APPLICATION_PROTOCOL_DEFINITION ( 'draft international standard', 'automotive_design', 1998, #247 ) ;
#152 = ORIENTED_EDGE ( 'NONE', *, *, #77, .T. ) ;
#153 = DIRECTION ( 'NONE',  ( -1.000000000000000000, 0.000000000000000000, 1.203161767583363456E-16 ) ) ;
#154 = PRODUCT_DEFINITION_CONTEXT ( 'detailed design', #247, 'design' ) ;
#155 = VECTOR ( 'NONE', #141, 1000.000000000000000 ) ;
#156 = DIRECTION ( 'NONE',  ( 1.000000000000000000, 0.000000000000000000, 0.000000000000000000 ) ) ;
#157 = DIRECTION ( 'NONE',  ( -1.224646799147353207E-16, 1.000000000000000000, 1.473448207527437814E-32 ) ) ;
#158 = ADVANCED_FACE ( 'NONE', ( #36 ), #278, .T. ) ;
#159 = EDGE_CURVE ( 'NONE', #50, #200, #162, .T. ) ;
#160 = DIRECTION ( 'NONE',  ( -1.203161767583363456E-16, -0.000000000000000000, -1.000000000000000000 ) ) ;
#161 = CARTESIAN_POINT ( 'NONE',  ( 0.000000000000000000, 0.000000000000000000, 3.674588596773656679 ) ) ;
#162 = CIRCLE ( 'NONE', #199, 12.69999999999999929 ) ;
#163 = CARTESIAN_POINT ( 'NONE',  ( -12.49999999999999645, 1.543054966925664878E-15, 0.000000000000000000 ) ) ;
#164 = DIRECTION ( 'NONE',  ( -0.000000000000000000, -0.000000000000000000, -1.000000000000000000 ) ) ;
#165 = CIRCLE ( 'NONE', #52, 12.52902277269302900 ) ;
#166 = DIRECTION ( 'NONE',  ( 0.000000000000000000, 0.000000000000000000, 1.000000000000000000 ) ) ;
#167 = EDGE_CURVE ( 'NONE', #318, #50, #250, .T. ) ;
#168 = FACE_OUTER_BOUND ( 'NONE', #75, .T. ) ;
#169 = PRESENTATION_LAYER_ASSIGNMENT (  '', '', ( #142 ) ) ;
#170 = AXIS2_PLACEMENT_3D ( 'NONE', #182, #131, #207 ) ;
#171 = EDGE_LOOP ( 'NONE', ( #107, #195 ) ) ;
#172 = ORIENTED_EDGE ( 'NONE', *, *, #311, .F. ) ;
#173 = SURFACE_STYLE_FILL_AREA ( #315 ) ;
#174 = DIRECTION ( 'NONE',  ( -1.203161767583363456E-16, -0.000000000000000000, -1.000000000000000000 ) ) ;
#175 = TOROIDAL_SURFACE ( 'NONE', #253, 12.70000000000000107, 1.178228070174831110 ) ;
#176 = ORIENTED_EDGE ( 'NONE', *, *, #202, .F. ) ;
#177 = EDGE_LOOP ( 'NONE', ( #288, #2, #198 ) ) ;
#178 = CARTESIAN_POINT ( 'NONE',  ( 0.000000000000000000, 0.000000000000000000, -65.13299999999999557 ) ) ;
#179 = VECTOR ( 'NONE', #96, 1000.000000000000000 ) ;
#180 = CARTESIAN_POINT ( 'NONE',  ( 12.69999999999999929, 1.555301434917138433E-15, 0.2000000000000022593 ) ) ;
#181 = EDGE_CURVE ( 'NONE', #127, #272, #114, .T. ) ;
#182 = CARTESIAN_POINT ( 'NONE',  ( 0.000000000000000000, 0.000000000000000000, 3.859999999999999876 ) ) ;
#183 = CARTESIAN_POINT ( 'NONE',  ( 12.69999999999999929, 1.555301434917138433E-15, 3.674588596773655347 ) ) ;
#184 = CIRCLE ( 'NONE', #225, 1.178228070174831110 ) ;
#185 = DIRECTION ( 'NONE',  ( -1.000000000000000000, 0.000000000000000000, 1.203161767583363456E-16 ) ) ;
#186 = PRODUCT_DEFINITION_SHAPE ( 'NONE', 'NONE',  #101 ) ;
#187 = CYLINDRICAL_SURFACE ( 'NONE', #10, 12.69999999999999929 ) ;
#188 = AXIS2_PLACEMENT_3D ( 'NONE', #61, #112, #82 ) ;
#189 = EDGE_CURVE ( 'NONE', #237, #29, #69, .T. ) ;
#190 = EDGE_CURVE ( 'NONE', #318, #270, #122, .T. ) ;
#191 = DIRECTION ( 'NONE',  ( 1.203161767583364195E-16, -0.000000000000000000, 1.000000000000000000 ) ) ;
#192 = UNCERTAINTY_MEASURE_WITH_UNIT (LENGTH_MEASURE( 1.000000000000000082E-05 ), #23, 'distance_accuracy_value', 'NONE');
#193 = VERTEX_POINT ( 'NONE', #281 ) ;
#194 = DIRECTION ( 'NONE',  ( -1.000000000000000000, 0.000000000000000000, 1.038423052289610415E-16 ) ) ;
#195 = ORIENTED_EDGE ( 'NONE', *, *, #124, .T. ) ;
#196 =( LENGTH_UNIT ( ) NAMED_UNIT ( * ) SI_UNIT ( .MILLI., .METRE. ) );
#197 = CARTESIAN_POINT ( 'NONE',  ( 2.266210899342775174E-18, 0.000000000000000000, 3.878835463030831932 ) ) ;
#198 = ORIENTED_EDGE ( 'NONE', *, *, #103, .F. ) ;
#199 = AXIS2_PLACEMENT_3D ( 'NONE', #84, #58, #156 ) ;
#200 = VERTEX_POINT ( 'NONE', #261 ) ;
#201 = DIRECTION ( 'NONE',  ( 1.000000000000000000, 0.000000000000000000, 0.000000000000000000 ) ) ;
#202 = EDGE_CURVE ( 'NONE', #193, #200, #211, .T. ) ;
#203 = DIRECTION ( 'NONE',  ( 0.7071067811865474617, 0.000000000000000000, 0.7071067811865474617 ) ) ;
#204 = UNCERTAINTY_MEASURE_WITH_UNIT (LENGTH_MEASURE( 1.000000000000000082E-05 ), #113, 'distance_accuracy_value', 'NONE');
#205 = FACE_OUTER_BOUND ( 'NONE', #27, .T. ) ;
#206 = LINE ( 'NONE', #5, #149 ) ;
#207 = DIRECTION ( 'NONE',  ( -1.000000000000000000, 0.000000000000000000, 0.000000000000000000 ) ) ;
#208 =( GEOMETRIC_REPRESENTATION_CONTEXT ( 3 ) GLOBAL_UNCERTAINTY_ASSIGNED_CONTEXT ( ( #95 ) ) GLOBAL_UNIT_ASSIGNED_CONTEXT ( ( #196, #144, #317 ) ) REPRESENTATION_CONTEXT ( 'NONE', 'WORKASPACE' ) );
#209 = AXIS2_PLACEMENT_3D ( 'NONE', #161, #80, #252 ) ;
#210 = PRESENTATION_STYLE_ASSIGNMENT (( #39 ) ) ;
#211 = LINE ( 'NONE', #308, #179 ) ;
#212 = ADVANCED_FACE ( 'NONE', ( #118 ), #138, .F. ) ;
#213 = CARTESIAN_POINT ( 'NONE',  ( -1.402593628302662339E-16, 0.000000000000000000, 3.872471589132496117 ) ) ;
#214 = CIRCLE ( 'NONE', #295, 12.49999999999999645 ) ;
#215 = DIRECTION ( 'NONE',  ( 1.203161767583364195E-16, -0.000000000000000000, 1.000000000000000000 ) ) ;
#216 = ORIENTED_EDGE ( 'NONE', *, *, #167, .F. ) ;
#217 = ORIENTED_EDGE ( 'NONE', *, *, #254, .F. ) ;
#218 = CONICAL_SURFACE ( 'NONE', #282, 12.52902277269314446, 0.7125841368262356701 ) ;
#219 = APPLICATION_PROTOCOL_DEFINITION ( 'draft international standard', 'automotive_design', 1998, #303 ) ;
#220 = ORIENTED_EDGE ( 'NONE', *, *, #77, .F. ) ;
#221 = ORIENTED_EDGE ( 'NONE', *, *, #7, .T. ) ;
#222 = EDGE_CURVE ( 'NONE', #270, #200, #15, .T. ) ;
#223 = EDGE_LOOP ( 'NONE', ( #129, #74, #264, #145 ) ) ;
#224 = AXIS2_PLACEMENT_3D ( 'NONE', #265, #100, #194 ) ;
#225 = AXIS2_PLACEMENT_3D ( 'NONE', #86, #11, #83 ) ;
#226 = CARTESIAN_POINT ( 'NONE',  ( 0.000000000000000000, 0.000000000000000000, 3.674588596773656679 ) ) ;
#227 = DIRECTION ( 'NONE',  ( 0.000000000000000000, 0.000000000000000000, -1.000000000000000000 ) ) ;
#228 = CARTESIAN_POINT ( 'NONE',  ( 0.000000000000000000, 0.000000000000000000, 0.000000000000000000 ) ) ;
#229 = CIRCLE ( 'NONE', #92, 12.52902277269302900 ) ;
#230 = CIRCLE ( 'NONE', #25, 12.49016633290208667 ) ;
#231 = DIRECTION ( 'NONE',  ( -1.000000000000000000, 0.000000000000000000, 1.041653547523500834E-16 ) ) ;
#232 = CYLINDRICAL_SURFACE ( 'NONE', #170, 12.69999999999999929 ) ;
#233 = FILL_AREA_STYLE_COLOUR ( '', #121 ) ;
#234 = FILL_AREA_STYLE ('',( #233 ) ) ;
#235 = DIRECTION ( 'NONE',  ( -1.000000000000000000, 0.000000000000000000, 0.000000000000000000 ) ) ;
#236 = CARTESIAN_POINT ( 'NONE',  ( 0.000000000000000000, 0.000000000000000000, 0.2000000000000022593 ) ) ;
#237 = VERTEX_POINT ( 'NONE', #260 ) ;
#238 = ADVANCED_BREP_SHAPE_REPRESENTATION ( 'GL7AL2-025-050', ( #284, #85 ), #208 ) ;
#239 = ORIENTED_EDGE ( 'NONE', *, *, #159, .F. ) ;
#240 = EDGE_LOOP ( 'NONE', ( #172, #22, #148 ) ) ;
#241 = STYLED_ITEM ( 'NONE', ( #210 ), #284 ) ;
#242 = CONICAL_SURFACE ( 'NONE', #188, 12.69999999999999929, 0.7853981633974482790 ) ;
#243 = ADVANCED_FACE ( 'NONE', ( #140 ), #187, .T. ) ;
#244 = EDGE_LOOP ( 'NONE', ( #246, #20, #239, #216 ) ) ;
#245 = CARTESIAN_POINT ( 'NONE',  ( -12.52902277269578946, 0.000000000000000000, 3.872471589132497893 ) ) ;
#246 = ORIENTED_EDGE ( 'NONE', *, *, #124, .F. ) ;
#247 = APPLICATION_CONTEXT ( 'automotive_design' ) ;
#248 =( GEOMETRIC_REPRESENTATION_CONTEXT ( 3 ) GLOBAL_UNCERTAINTY_ASSIGNED_CONTEXT ( ( #192 ) ) GLOBAL_UNIT_ASSIGNED_CONTEXT ( ( #23, #71, #104 ) ) REPRESENTATION_CONTEXT ( 'NONE', 'WORKASPACE' ) );
#249 = DIRECTION ( 'NONE',  ( -1.203161767583364195E-16, 0.000000000000000000, -1.000000000000000000 ) ) ;
#250 = LINE ( 'NONE', #133, #306 ) ;
#251 = DIRECTION ( 'NONE',  ( -1.000000000000000000, -1.224646799147353207E-16, 0.000000000000000000 ) ) ;
#252 = DIRECTION ( 'NONE',  ( 1.000000000000000000, 0.000000000000000000, -1.365923996832131609E-16 ) ) ;
#253 = AXIS2_PLACEMENT_3D ( 'NONE', #300, #57, #153 ) ;
#254 = EDGE_CURVE ( 'NONE', #313, #237, #165, .T. ) ;
#255 = CARTESIAN_POINT ( 'NONE',  ( -12.70000000000000107, 0.000000000000000000, 5.038228070174835871 ) ) ;
#256 = SURFACE_STYLE_FILL_AREA ( #234 ) ;
#257 = ADVANCED_FACE ( 'NONE', ( #44 ), #274, .F. ) ;
#258 = CONICAL_SURFACE ( 'NONE', #24, 12.69999999999999929, 0.7853981633974482790 ) ;
#259 = FACE_OUTER_BOUND ( 'NONE', #244, .T. ) ;
#260 = CARTESIAN_POINT ( 'NONE',  ( 12.52902277269578946, 1.534362763502619969E-15, 3.872471589132494341 ) ) ;
#261 = CARTESIAN_POINT ( 'NONE',  ( -12.69999999999999929, 0.000000000000000000, 0.2000000000000022593 ) ) ;
#262 = PRODUCT_DEFINITION_FORMATION_WITH_SPECIFIED_SOURCE ( 'ÈÎºÎ', '', #132, .NOT_KNOWN. ) ;
#263 = AXIS2_PLACEMENT_3D ( 'NONE', #178, #6, #273 ) ;
#264 = ORIENTED_EDGE ( 'NONE', *, *, #103, .T. ) ;
#265 = CARTESIAN_POINT ( 'NONE',  ( -1.402593628301707324E-16, 0.000000000000000000, 3.872471589133289260 ) ) ;
#266 = EDGE_LOOP ( 'NONE', ( #316, #217, #53, #102 ) ) ;
#267 = EDGE_CURVE ( 'NONE', #237, #313, #229, .T. ) ;
#268 = ADVANCED_FACE ( 'NONE', ( #168 ), #218, .T. ) ;
#269 = SURFACE_SIDE_STYLE ('',( #173 ) ) ;
#270 = VERTEX_POINT ( 'NONE', #163 ) ;
#271 = CLOSED_SHELL ( 'NONE', ( #268, #277, #8, #257, #43, #243, #212, #55, #158, #18, #301 ) ) ;
#272 = VERTEX_POINT ( 'NONE', #280 ) ;
#273 = DIRECTION ( 'NONE',  ( -1.000000000000000000, 0.000000000000000000, 1.978781430683766113E-16 ) ) ;
#274 = TOROIDAL_SURFACE ( 'NONE', #41, 12.70000000000000107, 1.178228070174831110 ) ;
#275 = CARTESIAN_POINT ( 'NONE',  ( -12.49016633290208667, 0.000000000000000000, 3.878835463030832820 ) ) ;
#276 = DIRECTION ( 'NONE',  ( -0.000000000000000000, -0.000000000000000000, -1.000000000000000000 ) ) ;
#277 = ADVANCED_FACE ( 'NONE', ( #259 ), #258, .T. ) ;
#278 = SPHERICAL_SURFACE ( 'NONE', #263, 70.13299999999999557 ) ;
#279 = CIRCLE ( 'NONE', #4, 12.69999999999999929 ) ;
#280 = CARTESIAN_POINT ( 'NONE',  ( 12.49016633290208667, 1.531983492771476481E-15, 3.878835463030830599 ) ) ;
#281 = CARTESIAN_POINT ( 'NONE',  ( -12.69999999999999929, 0.000000000000000000, 3.674588596773658455 ) ) ;
#282 = AXIS2_PLACEMENT_3D ( 'NONE', #137, #89, #312 ) ;
#283 = CARTESIAN_POINT ( 'NONE',  ( 0.000000000000000000, 0.000000000000000000, 0.000000000000000000 ) ) ;
#284 = MANIFOLD_SOLID_BREP ( 'µ¹½Ç2', #271 ) ;
#285 = DIRECTION ( 'NONE',  ( 1.000000000000000000, 0.000000000000000000, -1.038423052289620029E-16 ) ) ;
#286 = FILL_AREA_STYLE_COLOUR ( '', #30 ) ;
#287 = DIRECTION ( 'NONE',  ( 1.000000000000000000, 0.000000000000000000, 0.000000000000000000 ) ) ;
#288 = ORIENTED_EDGE ( 'NONE', *, *, #181, .F. ) ;
#289 = AXIS2_PLACEMENT_3D ( 'NONE', #298, #157, #251 ) ;
#290 = DIRECTION ( 'NONE',  ( -0.000000000000000000, -0.000000000000000000, 1.000000000000000000 ) ) ;
#291 = ORIENTED_EDGE ( 'NONE', *, *, #67, .T. ) ;
#292 = ORIENTED_EDGE ( 'NONE', *, *, #314, .T. ) ;
#293 = CARTESIAN_POINT ( 'NONE',  ( 0.000000000000000000, 0.000000000000000000, 0.000000000000000000 ) ) ;
#294 = ORIENTED_EDGE ( 'NONE', *, *, #314, .F. ) ;
#295 = AXIS2_PLACEMENT_3D ( 'NONE', #228, #12, #201 ) ;
#296 = ORIENTED_EDGE ( 'NONE', *, *, #267, .F. ) ;
#297 = CARTESIAN_POINT ( 'NONE',  ( 4.143726726362337326E-15, 0.000000000000000000, 5.000000000000004441 ) ) ;
#298 = CARTESIAN_POINT ( 'NONE',  ( 0.000000000000000000, 0.000000000000000000, -65.13299999999999557 ) ) ;
#299 = VECTOR ( 'NONE', #90, 1000.000000000000114 ) ;
#300 = CARTESIAN_POINT ( 'NONE',  ( 0.000000000000000000, 0.000000000000000000, 5.038228070174834095 ) ) ;
#301 = ADVANCED_FACE ( 'NONE', ( #63 ), #143, .T. ) ;
#302 = FACE_OUTER_BOUND ( 'NONE', #240, .T. ) ;
#303 = APPLICATION_CONTEXT ( 'automotive_design' ) ;
#304 = FACE_OUTER_BOUND ( 'NONE', #146, .T. ) ;
#305 = AXIS2_PLACEMENT_3D ( 'NONE', #51, #49, #73 ) ;
#306 = VECTOR ( 'NONE', #203, 1000.000000000000114 ) ;
#307 =( NAMED_UNIT ( * ) PLANE_ANGLE_UNIT ( ) SI_UNIT ( $, .RADIAN. ) );
#308 = CARTESIAN_POINT ( 'NONE',  ( -12.69999999999999929, 0.000000000000000000, 3.859999999999999876 ) ) ;
#309 = CARTESIAN_POINT ( 'NONE',  ( 12.52902277269314446, 1.534362763502295550E-15, 3.872471589133287928 ) ) ;
#310 = DIRECTION ( 'NONE',  ( 1.000000000000000000, 0.000000000000000000, -0.000000000000000000 ) ) ;
#311 = EDGE_CURVE ( 'NONE', #127, #72, #130, .T. ) ;
#312 = DIRECTION ( 'NONE',  ( -1.000000000000000000, 0.000000000000000000, 1.038423052289610415E-16 ) ) ;
#313 = VERTEX_POINT ( 'NONE', #245 ) ;
#314 = EDGE_CURVE ( 'NONE', #200, #50, #279, .T. ) ;
#315 = FILL_AREA_STYLE ('',( #286 ) ) ;
#316 = ORIENTED_EDGE ( 'NONE', *, *, #189, .F. ) ;
#317 =( NAMED_UNIT ( * ) SI_UNIT ( $, .STERADIAN. ) SOLID_ANGLE_UNIT ( ) );
#318 = VERTEX_POINT ( 'NONE', #28 ) ;
ENDSEC;
END-ISO-10303-21;
